Тема: Гітарні акорди та тексти до них

Показ результатів 1 до 10 з 30

  1. #1
    Все's Avatar
    Приєднався 09.03.2007
    Звідки Львів
    Повідомлень 5384
    Записів в журналі 30

    Гітарні акорди та тексти до них

    Я взагалі то ніяк не навчуся грати на гітарі, пальці не туди ростуть чи що (на піаніно навпаки давалося легко, але...).
    Але спеціально для донецького таваріща вирішив створити тему, щоб він не продовжував офтопити:
    не знаю,може не туди пишу,так от звертаюся до любителів гітари,друзі,які класні пісні ви вмієте грати на гітарі,прошу навести тут аккорди с текстами...буду радий якщо тут будуть українські пісні,і краще б не ті що поють на естраді,а дещо схоже на пісні у вогнища...
    Я щось своїх ніяк не можу знайти, знайду - кину...
    Але ви теж допомагайте...
    Хай вивчить людина кілька українських пісень під гітару співати, нє?
    Коли всі думають однаково, значить, ніхто особливо і не думає...
  2. #2
    Приєднався 01.12.2007
    Звідки Donetsk
    Повідомлень 618

    Re: гітарні акорди та тексти до них

    Хай вивчить людина кілька українських пісень під гітару співати, нє?
    я вже знаю моторола-восьмий колір так шо не надо ля-ля...
  3. #3
    Все's Avatar
    Приєднався 09.03.2007
    Звідки Львів
    Повідомлень 5384
    Записів в журналі 30

    Re: гітарні акорди та тексти до них

    я вже знаю моторола-восьмий колір так шо не надо ля-ля...
    То може, ще й акорди з текстом в цю тему закинеш? Ну, як зелений борщ доїси )
    А якщо серйозно - вітаю!
    Коли всі думають однаково, значить, ніхто особливо і не думає...
  4. #4
    Приєднався 01.12.2007
    Звідки Donetsk
    Повідомлень 618

    Re: гітарні акорди та тексти до них

    звичайно закину...

    Моторола -восьмий колір

    Em G
    я йшов по воді і назад озирався
    Am H7
    а потім побачив тебе
    Em G
    тебе у воді, я отак закохався
    Am H7
    веселка цариця небес
    C Am
    мені закортіло всі хмари за гору
    D G
    загнати і витерти бруд
    C Am
    з обличчя і ніг, щоб унизити сором,
    C7 H7
    навіки залишитись тут

    Em D(басF#)G Am
    хочеш я твоїм кольором буду
    C G Am H7
    восьмим кольором, восьмим чудом
    Em D(басF#)G Am
    білим, я буду білим, як сніг,
    C G Am H7
    якщо ти ним бути дозволиш мені

    дозволиш, я знаю, натягнуться струни
    порвуться, і я полечу
    я буду співати, у небі літаю,
    за мрію життям заплачу

    я буду проміння за пальці тримати
    гаряче, як жовті вогні
    і в губи безодню небес цілувати
    ніхто не завадить мені

    { додано через 2 хвилини }
    а ще подобається одна пісня,але я її не дуже вмію грати співає не знаю хто,але цю пісню багато раз по радіо крутили...


    Програш: Am Dm F E (2 рази)

    Am
    Я хочу втікти в дрімучі ліси,
    F E
    Я втомився від міської, асфальтної краси.
    Мене задовбали трамваї і колії.
    Кондуктори , дебіли і профілакторії.
    В мене на канапі лежали дівчата,
    Вони хотіли кохання у мене забрати.
    А на столі лежить старенький килимок,
    Я проглядаю його крізь сигаретний димок.

    Перехід
    4: -2-0------
    5: -----3-2-

    Приспів
    Am
    А там олені, олені не бриті і не голені
    F E
    Дивні створіння в них з мозгів стирчать коріння.
    Am F
    Олені, олені не бриті і не голені, - олені .....

    Перехід

    Програш 2 рази


    Я вчора розмовляв з директором Чукотки,
    Він просив , а я налив йому в стаканчик водки.
    Ми дивились в мікроскоп строєніє генів
    Я дивився на дівчат, а думав про оленів.

    Там дівчата , де олені красиві не голені
    Дивні створіння без мозгів і без коріння.
    Олені, олені не бриті і не голені, - олені

    { додано через 6 хвилин }
    а ще,тут можна викладати тексти й акорди не тільки на українські пісні,але й любі інщі,щоб тільки гарні були,мене дуже цікавлять пісні що співає львівська молодь,тим паче під шафе...як кажуть дворові пісні...
    Відредагув(ла) diden : 22.12.2007 о 23:31:31 Причина: Додано повідомлення
  5. #5
    ggg1089's Avatar
    Приєднався 16.10.2007
    Звідки Київ
    Повідомлень 1183
    Записів в журналі 34

    Re: Гітарні акорди та тексти до них

    В мене покищо є таби тільки Liquid Tension Experiment. Якщо кому цікаво, то кидаю найпростішу композицію.

    State of Grace


    Author - Shawn Mull


    State of Grace
    by the Liquid Tension Experiment
    transcribed by Shawn Mull


    ~ vibrato
    / slide up
    \ slide down
    ^ bend
    v hit the note, then whammy down and up quickly
    h hammer on
    p pull off



    Open with Piano


    |------------------------------------|--------------------------------------|
    |------------------------------------|--------------------------------------|
    |------10---------10-/-12~~~~~-------|-------------7------------------------|
    |-10----------10---------------------|--7-8-10~~------5-/-7^8^7--5\3-3/5~---|
    |------------------------------------|--------------------------------------|
    |------------------------------------|--------------------------------------|


    |------------------------------------|--------------------------------------|
    |------------------------------------|--------------------------------------|
    |------10---------10-/-12----/-14v---|--12----------------------------------|
    |-10----------10---------------------|---------12----15--15---14v-----------|
    |------------------------------------|--------------------------------------|
    |------------------------------------|--------------------------------------|


    |------------------------------------|--------------------------------------|
    |-------------------17--17--18~~-----|--------------------------------------|
    |-14-15--15/17~~---------------------|-15----14--15--17~--------------------|
    |------------------------------------|---------------------15--14--12~~-----|
    |------------------------------------|--------------------------------------|
    |------------------------------------|--------------------------------------|


    |-------------------15--15-/17--13~--|--------------------------------------|
    |------------------------------------|--------------------------------------|
    |-14-15--15/17~~---------------------|-15--\14--\12---10-/--12--12~~--------|
    |------------------------------------|--------------------------------------|
    |------------------------------------|--------------------------------------|
    |------------------------------------|--------------------------------------|


    |------------------------------------|--------------------------------------|
    |------------------------------------|--------------------------------------|
    |-14---15--15/17~~-\-12---14---15~~--|-\10--12--12/14~---10--9--------------|
    |------------------------------------|----------------------------14^15^14--|
    |------------------------------------|--------------------------------------|
    |------------------------------------|--------------------------------------|


    |------------------------------------|--------------------------------------|
    |------------------------------------|--------------------------------------|
    |------------------------------------|-/14-14--15~-----14\12-\-10-/-12~~----|
    |-12---14--15~----14-12-----14--15---|--------------------------------------|
    |-----------------------15-----------|--------------------------------------|
    |------------------------------------|--------------------------------------|


    |------------------------------------|--------------------------------------|
    |------------------------------------|--------------------------------------|
    |-14---15--15/17~~-\-12---14---15~~--|-\10--12--12^14^12--10--10\9~~--------|
    |------------------------------------|--------------------------------------|
    |------------------------------------|--------------------------------------|
    |------------------------------------|--------------------------------------|


    |------------------------------------|------------17-17-18---17\15\13/15~---|
    |---------------------------------/15|--17--18~-----------------------------|
    |-------------------------------15---|--------------------------------------|
    |-14^15^14--12h14p12\10--/12-15------|--------------------------------------|
    |------------------------------------|--------------------------------------|
    |------------------------------------|--------------------------------------|


    |------------------------------------|--------------------------------------|
    |-17^18^17--15--13-------------------|--------------------------------------|
    |-------------------14---------------|--------------------------------------|
    |-----------------------\15~~--------|-14^15^14~~---------------------------|
    |------------------------------------|--------------------------------------|
    |------------------------------------|--------------------------------------|


    |------------------------------------|--------------------------------------|
    |------------------------------------|--------------------------------------|
    |------------------------------------|--------------------------------------|
    |-\9--9--10~-------------------------|-/13---12^13^12~~---------------------|
    |------------------------------------|---------------------\12--12---13~~---|
    |------------------------------------|--------------------------------------|


    |------------------------------------|--------------------------------------|
    |------------------------------------|--------------------------------------|
    |------------------------------------|-\14---15~~-----17-^-18-^-17~~--------|
    |------------------------------------|--------------------------------------|
    |--15----12---13~~-------------------|--------------------------------------|
    |------------------------------------|--------------------------------------|
    gradual bend/release

    |------------------------------------|--------------------------------------|
    |------------------------------------|--------------------------------------|
    |------------------------12--14~~----|--------/17---15-------------12/14----|
    |--------------------13--------------|-\15-15------------15---12------------|
    |-\13~~----------13------------------|--------------------------------------|
    |------------------------------------|--------------------------------------|


    |------------------------------------|--------------------------------------|
    |------------------------------------|--------------------------------------|
    |-12^14^12---------------------------|--------------------------------------|
    |--------------15-----------14--12---|--------------------------------------|
    |--------------------15-15-----------|-15--13--15~--------------------10-12-|
    |------------------------------------|----------------\13--15v--------------|


    |------------------------------------|--------------------------------------|
    |------------------------------------|--------------------------------------|
    |------------------------12--14~~----|--------/17---15-------------12/14----|
    |--------------------13--------------|-\15-15------------15---12------------|
    |--13~~----------13------------------|--------------------------------------|
    |------------------------------------|--------------------------------------|


    |------------------------------------|--------------------------------------|
    |------------------------------------|--------------------------------------|
    |-15--12---14------------------------|--------------------------------------|
    |-------------\15-----------14--15---|-12-----------------------------------|
    |-----------------------15-----------|-----13-------------------------------|
    |------------------------------------|---------15----\13--12v---------------|


    |------------------------------------|--------------------------------------|
    |------------------/17--17--18~~-----|--------------------------------------|
    |-14-15--15/17~~---------------------|-15----14--15--17~--------------------|
    |------------------------------------|---------------------15--14--12---10~-|
    |------------------------------------|--------------------------------------|
    |------------------------------------|--------------------------------------|


    |------------------/15--15--17-\13~--|------17^19^17---15---13-/15--15~-----|
    |------------------------------------|--15----------------------------------|
    |-14-15--15/17~~---------------------|--------------------------------------|
    |------------------------------------|--------------------------------------|
    |------------------------------------|--------------------------------------|
    |------------------------------------|--------------------------------------|
    gradual bend/release

    |------------------------------------|--------------------------------------|
    |------------------------------------|--------------------------------------|
    |-14---15--15/17~~-\-12---14---15~~--|-\10--12--12/14~--10-9----------------|
    |------------------------------------|-----------------------14^15^14-12-10-|
    |------------------------------------|--------------------------------------|
    |------------------------------------|--------------------------------------|


    |------------------------------------|--------------------------------------|
    |------------------------------------|--------------------------------------|
    |------------------------------------|-/14-14--15~-----14\12-\-10-/-12~~----|
    |-12---14--15~----14-12-----14--15---|--------------------------------------|
    |-----------------------15-----------|--------------------------------------|
    |------------------------------------|--------------------------------------|


    |------------------------------------|
    |------------------------------------|
    |-12^13^12--12---10h12p10\9----------|
    |----------------------------12--10--|
    |------------------------------------|
    |------------------------------------|



    |------------------------------------|--------------------------------------|
    |------------------------------------|--------------------------------------|
    |/14---15--15/17~~-\-12---14---15~~--|-\10--12--12^14^12--10--10\9~~--------|
    |------------------------------------|--------------------------------------|
    |------------------------------------|--------------------------------------|
    |------------------------------------|--------------------------------------|


    |------------------------------------|-----------/17-17-18---17\15\13/15~---|
    |---------------------------------/15|-17--18~~-----------------------------|
    |-------------------------------15---|--------------------------------------|
    |-14^15^14--12h14p12\10--/12-15------|--------------------------------------|
    |------------------------------------|--------------------------------------|
    |------------------------------------|--------------------------------------|


    End with Piano

    { додано через 3 хвилини }
    Ще mp3 кину, бо по табам мелодію не зіграєш, треба знати як вона звучить.
    Відредагув(ла) ggg1089 : 25.12.2007 о 10:43:51 Причина: Додано повідомлення
  6. #6
    ggg1089's Avatar
    Приєднався 16.10.2007
    Звідки Київ
    Повідомлень 1183
    Записів в журналі 34

    Re: Гітарні акорди та тексти до них

    Послухайте, і спробуйте зіграти.
    Приєднані файли
  7. #7
    Приєднався 01.12.2007
    Звідки Donetsk
    Повідомлень 618

    Re: Гітарні акорди та тексти до них

    Послухайте, і спробуйте зіграти.
    раніше може б і зіграв,а зараз тільки на акордах,пальці вже не ті...
  8. #8
    Приєднався 12.03.2007
    Звідки львів, сихів
    Повідомлень 14

    Re: Гітарні акорди та тексти до них

    http://www.pisni.org.ua/
    найкраща, як на мене, колекція українських пісень з текстами і акордами
  9. #9
    ggg1089's Avatar
    Приєднався 16.10.2007
    Звідки Київ
    Повідомлень 1183
    Записів в журналі 34

    Re: Гітарні акорди та тексти до них

    раніше може б і зіграв,а зараз тільки на акордах,пальці вже не ті...
    Я недавно на слух підбирав, але задобвався писати ноти. Там з паузами незрозуміло, самі синкопи. Потім надоїло і скачав з інета таби. А так зіграти можливо, темп не швидкий. Щодо акорді, то це занадто просто. Спробуй тоді щось блюзове, чи може краще кантрі.

    { додано через 37 секунд }
    пальці можна швидко натренувати
    Відредагув(ла) ggg1089 : 26.12.2007 о 14:12:43 Причина: Додано повідомлення
  10. #10
    LaSG's Avatar
    Приєднався 15.04.2007
    Звідки Львів
    Повідомлень 1054
    Записів в журналі 5

    Re: Гітарні акорди та тексти до них

    загалом якщо українські, то сайт пісні.орг.юей кращий з кращих (або те, що маємо). На жаль, всі мої архіви знаходяться вдома, тому відправити не зможу... а якщо комусь цікаво і іноземні групи, то непогана є ціла база (програмка) soundbook... пошукайте в неті, я давно качав її.
    На цвинтарі розстріляних ілюзій
    Уже немає місця для могил(с)

    В.Симоненко
Сторінка 1 з 3 123 Останні
  • Перейти до сторінки:

Подібні теми

  1. цікаві тексти, які треба знати кожному українцю
    Від sevtavr у форумі Форум для гостей
    Відповідей: 0
    Останнє: 15.07.2010, 09:54:19
  2. Тексти улюблених пісень
    Від hudzyk у форумі Книги та література
    Відповідей: 60
    Останнє: 30.11.2009, 13:37:46
  3. Акорди до гітари
    Від Gato у форумі Розшукується..
    Відповідей: 4
    Останнє: 19.08.2008, 13:30:52
  4. Шукаю ноти (гітарні ) to пісні
    Від natalka у форумі Музика, музичні напрямки, музиканти
    Відповідей: 2
    Останнє: 03.03.2008, 18:33:37

Ваші права у розділі

  • Ви не можете створювати нові теми
  • Ви не можете відповідати на повідомлення
  • Ви не можете приєднувати файли
  • Ви не можете редагувати повідомлення